Verse:


Cm                      Cm(add b5)        Cm               Cm (add b5)
On the day the wall came down, they threw the locks on to the ground


Fm/Ab                                                   Gsus4                   G
And with glasses high we raised a cry for freedom had arrived

Cm                         Cm(add b5)
And on the day the wall came down


Cm                           Cm(add b5)
The ship of fools had finally run aground


Fm/Ab                  Gsus4           G
Promises lit up the night like paper doves in flight


Chorus:
     F                G/F        F                                G/F      F        F/C  C
I dreamed you had left my side. No warmth not even pride remained--


     F/C           F                   G/F    F                                   G/F        F
              And even though you needed me, it was clear that I could not


      F/C  C               C   G/C   G/B
do a thing for you


Verse:


Cm               Cm(add b5)
Now life devalues day by day


Cm               Cm(add b5)
As friends and neighbours turn away


Fm/Ab                                       Gsus4                         G
And there's a change that even with regret can not be undone



Cm                       Cm(add b5)
Now frontiers shift like desert sands,


Cm                          Cm(add b5)
while nations wash their bloodied hands

Fm/Ab                       Gsus4            G
Of loyalty, of history, in shades of grey


Chorus:


     F              G/F         F
I woke to the sound of drums


   G/F                    F          F/C            C
The music played, the morning sun streamed in


F/C        F               G/F    F
I turned and I looked at you,


G/F                      F                   F/C      C
and all but the bitter residue slipped away,


C   G/C   G/B
slipped away


Outro Solo:

E|-------------------------------------------------------------|
B|------------------------------8b(10)8--10bb--8---/-------|
G|------5-(7)-5--7bb-(7)-5----------------------------------|
D|-5/7--------------------------------------------------------|
A|-------------------------------------------------------------|
E|-------------------------------------------------------------|

E|--------------------------------------------------------------------|
B|-----8------------------------5--h6p5h6p5----------------------|
G|-/7----7b-7b--^r--5---/7-----------------7br7-5-7-5~--(/7)--|
D|-------------------------------------------------------------------|
A|--------------------------------------------------------------------|
E|--------------------------------------------------------------------|

E|-------------------------------12---------------------------------------------|
B|-----8--(10p8)--10p8--13b----13br-13--12br(12)(12br12)---------------|
G|-/7------------------------------------------------------------12-------------|
D|------------------------------------------------------------------(12)/14-----|
A|--------------------------------------------------------------------------------|
E|-------------------------------------------------------------------------------|

E|---------------------------------------------------------------------|
B|---------------------------------------------------8/10--10--10---|
G|-5*-7*p5--7b*7b*-5~---/----------5-7b|5----------------------|
D|--------------------------------/(7)--------------------------------|
A|---------------------------------------------------------------------|
E|---------------------------------------------------------------------|

E|-----------------------------------------------------------------------------------|
B|-13b--13-12br(12)--------------------------------------------------------------|
G|----------------------(14)-(12)---(7p5)--5~--7p5-5-------5-7p5-7p5-5-7b--|
D|-----------------------------------------------------7-7p5-7------------7-------|
A|----------------------------------------------------------------------------------|
E|----------------------------------------------------------------------------------|

E|----------------------------------------------------------------8~8~--7----------|
B|--6-------------------------------------------6--(6)/-8b---8b~---------8--8b---|
G|-----7b-r-5-5*-7*-7b*-7b*p-5-----5~~----5---------------------------7------|
D|-----------------------------------7-----------------------------------------------|
A|------------------------------------------------------------------------------------|
E|------------------------------------------------------------------------------------|

E|-------------------------------------------15---------15b-15b-15----|
B|-10-~--/12brbr--13p12h13-h15-/17--~-15r-13-------------------|
G|-----------------------------------------------------------------------|
D|-----------------------------------------------------------------------|
A|-----------------------------------------------------------------------|
E|------------------------------------------------------------------------|


E|--------------------------------------------------------------------------------------------------------|
B|-17h20p17--17---------------------------------------------------------------------------------------|
G|------------19---19b-19rp17--17-19b-17~----16h17p1617brp16/14-14h16-16b-16b-17r-14--|
D|-------------------------------19----------------------------------------------------------------------|
A|--------------------------------------------------------------------------------------------------------|
E|--------------------------------------------------------------------------------------------------------|

E|----------------------15b-~--15---------------------------------|
B|-13h15-15b-15rp13--------------------------------------------|
G|-----------------------------------------5-7-7b--7-5-7-7b-5---|
D|---------------------------------(3)/5---------------------------|
A|------------------------------------------------------------------|
E|------------------------------------------------------------------|

E|--------------------------------------------------------------|
B|--------------------------------------------------------------|
G|--------------------------------------------------------------|
D|-7p5---------------------------------------------------------|
A|-------7p6p5--5-------5-------2------------3p2-3-3/5-----|
E|---------------8--8-5-8--8~~----3-3/5~-------------------|

E|----------------------------------------------------------------------------------------------------|
B|------------------------------------------------------------------------6---6--8b~-r--b-r-b-10--|
G|--------------------------------------------------5--7r*-5-7-7b*-5-----5------------------------|
D|--------------------------------------------5-7----------------------------------------------------|
A|-3-p2---2------------------------3--5/-7---------------------------------------------------------|
E|-------5---5--5/7-5/7--3~~--5------------------------------------------------------------------|

E|-----------------------------------------------|
B|-8h10p8-6h8p6-5h6p5----------------------|
G|-------------------------7h9p7-5h7p5-5-----|  . . . (*)     (FADES OUT)
D|-----------------------------------------------|
A|-----------------------------------------------|
E|-----------------------------------------------|


A Great Day For Freedom