Intro:
|------------------------------------------------------------------------------------------------------|
|------------------------------------------------------------------------------------------------------|
|------------------------------------------------------------------------------------------------------|
|------------------------------------------------------------------------------------------------------|
|------------------------------------------------------------------------------------------------------|
|-0-0-0-0-0-0-0-0-0-0-0-0-0-0-0-0-0-0-0-0-0-0-0-0-0-0-0-0-0-0-0-0-0-0-0-0-0-0-0-0-0-0-|

|--------------------------------------------------------------------------------------------------------|
|--------------------------------------------------------------------------------------------------------|
|--------------------------------------------------------------------------------------------------------|
|--------------------------------------------------------------------------------------------------------|
|--------------------------------------------------------------------------------------------------------|
|-0-0-0-0-0-0-0-0-0-0-0-0-0-0-0-0-0-0-0-0-0-0-0-0-0-0-0-0-0-0-0-0-0-0-0-0-0-0-0-0-0-0-0-|

Guitar I
|---------------------------------------------------------------------------------|
|---------------------------------------------------------------------------------|
|------------9--8-----------------------------------------9--8--------------------|
|------------9--8-----------------------------------------9--8--------------------|
|------------7--6---------------------------2-------------7--6--------------------|
|-3-b4---0-------------------------------------3-b4---0---------------------------|

|Guitar II
|------------------------------------------------------------------------------------|
|------------------------------------------------------------------------------------|
|---------------------------------------------------------------------8------8-8-8-|
|---------------------------------------------------------------------8------8-8-8-|
|------------------------------------------------------------------6-----6--6-6-6--|
|------------------------------------------------------------------6-----6----------|


       E                                    D#
(From "Lime and limpid green...the blue you once knew")

Guitar I
|-0-0-0-0-0-0-0-0-0-0-0-0-0-0-0-0-0-0-0-0-0-0------------------------|
|-0-0-0-0-0-0-0-0-0-0-0-0-0-0-0-0-0-0-0-0-0-0------------------------|
|-1-1-1-1-1-1-1-1-1-1-1-1-1-1-1-1-1-1-1-1-1-1/13---8-----------------|
|-2-2-2-2-2-2-2-2-2-2-2-2-2-2-2-2-2-2-2-2-2-2/14---8-----------------|
|-2-2-2-2-2-2-2-2-2-2-2-2-2-2-2-2-2-2-2-2-2-2/14---6-------------10\-|
|-0-0-0-0-0-0-0-0-0-0-0-0-0-0-0-0-0-0-0-0-0-0------------------------|


|Guitar II
|-----------------------------------------------------/11-11-11-11\---|
|------------------------------------------------------------------------|
|------------------------------------------------------------------------|
|------------------------------------------------------------------------|
|------------------------------------------------------------------------|
|------------------------------------------------------------------------|


       G                              F#   A
(From "Floating down...the icy waters underground")

Guitar I
|-3------------------------------3--------3---4---5------------------------------------------------|
|-3------------------------------3--------3---4---5------------------------------------------------|
|-4------------------------------4--------4---5---6------------------------------------------------|
|-5------------------------------5--------5---6---7------------------------------------------------|
|-5------------------------------5--------5---6---7------------------------------------------------|
|-3------------------------------3--------3---4---5------------------------------------------------|


|Guitar II
|-3--------------------------3------------------------------------------------------------------------|
|------------------------------------------10-10-10-10-10-10\8-8-8\7-7-7/8-8-8/10-10-10-10-|
|-----------------------------------------------------------------------------------------------------|
|-----------------------------------------------------------------------------------------------------|
|-----------------------------------------------------------------------------------------------------|
|-----------------------------------------------------------------------------------------------------|


(From "Jupiter and Saturn...")

Guitar I
|--------------------------------------------------------------------------------------------|
|---------------9-9-9-9-9-9-9-9---9------------------------------------------------------|
|---------------9-9-9-9-9-9-9-9---9--------------8---------------------------------------|
|---------------9-9-9-9-9-9-9-9---9--------------8---------------------------------------|
|---------------7-7-7-7-7-7-7-7---7--------------6---------------------------------------|
|--------------------------------------------------------------------------------------------|


|Guitar II
|-------------------------------------------------------11---------------------------------------------|
|-10/17-17-17----------------------------------------11---------------------------------------------|
|-------------------------------------------------------11----13b15--15r13--11---------------------|
|-----------------------------------------------------------13---------------------13-13-13-13\-----|
|-------------------------------------------------------------------------------------------------------|
|-------------------------------------------------------------------------------------------------------|


(From "Neptune, Titan, stars can frighten")

Guitar I
|--------------------------------------------------------4--|
|--------------------------------------------------------4--|
|--------------------------------------------------------5--|
|-5-5-5-5-5-5-5-5-5-5-5-5-5-5-5-5-5-5-5--5-5-5--6--|
|-5-5-5-5-5-5-5-5-5-5-5-5-5-5-5-5-5-5-5--5-5-5--6--|
|-3-3-3-3-3-3-3-3-3-3-3-3-3-3-3-3-3-3-3--3-3-3--4--|


|Guitar II
|-3------------------------------------------------|
|--------------------------------------------------|
|--------------------------------------------------|
|--------------------------------------------------|
|--------------------------------------------------|
|--------------------------------------------------|



(From "ee ee ee ee ee ee ee ee")
|-----------------------------------------5------4------3----2-|
|-/10-10-10--9-9-9--8-8-8--7-7-7------------------------3-|
|-/9--9--9----8-8-8--7-7-7--6-6-6------------------------2-|
|-/7--7--7----6-6-6--5-5-5--4-4-4-3---3--2---2--1---1--0-|
|---------------------------------------------------------------|
|---------------------------------------------------------------|


(From "ee ee ee ee ee ee ee ee")

Guitar I
|--------------------------------------------------5----------------4----------3-------2---------|
|-/10-10-10---9--9--9----8--8--8----7--7--7---------------------------------------3---------|
|-/9--9--9-----8--8--8----7--7--7----6--6--6---------------------------------------2---------|
|-/7--7--7-----6--6--6----5--5--5----4--4--4----3-----3----2-----2----1-----1----0---------|
|-------------------------------------------------------------------------------------------------|
|-------------------------------------------------------------------------------------------------|


|Guitar II
|-/17-17-17---16-16-16---15-15-15---14-14-14---13-13-13---12-12-12---11-11-11---10-10-10\-|
|------------------------------------------------------------------------------------------------------------|
|------------------------------------------------------------------------------------------------------------|
|------------------------------------------------------------------------------------------------------------|
|------------------------------------------------------------------------------------------------------------|
|------------------------------------------------------------------------------------------------------------|


  D               D#                      E
|-2-------2-----2---2--3-----------3------4---------|
|-----3-------3---3-------4------4------4-5---------|
|------------------------------3------------4---------|
|------------------------------------------------------|
|------------------------------------------------------|
|------------------------------------------------------|



Guitar Solo:

Guitar I
|-12-(echo)--------------------------------------------------------------11\--|
|--------------------------------------------------------------------------------|
|--------------------------------------------------------------------------------|
|--------------------------------------------------------------------------------|
|--------------------------------------------------------------------------------|
|--------------------------------------------------------------------------------|

|Guitar II
|--------------11-11-11--11-11-11--11-11-11--11-11-11--11-11-11--11-11-11-----|
|-------------------------------------------------------------------------------------------|
|-------------------------------------------------------------------------------------------|
|-------------------------------------------------------------------------------------------|
|-------------------------------------------------------------------------------------------|
|-------------------------------------------------------------------------------------------|


Guitar I
|-3---3-/-10---10-\-3---3-/-10---10-\--5---5--------------------------------------------5p4------------|
|-------------------------------------------------5---------------------------------------5-----------------|
|----------------------------------------------------7b9--9r7--5---------------------------------5-3------|
|--------------------------------------------------------------------7--5------------------------------4-3--|
|---------------------------------------------------------------------------7-6-5-6-6h7--------------------|
|-------------------------------------------------------------------------------------------------------------|

|Guitar II
|----------------------------------------------------------------------------------------------------|
|----------------------------------------------------------------------------------------------------|
|----------------------------------------------------------------------------------------------------|
|----------------------------------------------------------------------------------------------------|
|----------------------------------------------------------------------------------------------------|
|----------------------------------------------------------------------------------------------------|


Guitar I
|---------------------------------------15\---3------------------------------------------------------|
|----------------------------------------------3------------------------------------------------------|
|-------------------------------------------------5-3-5b6b7-7--5-3-------------------------------|
|----------------------------------------------------------------------5-----------------------------|
|----------------------------------------------------------------------------------------------------|
|----------------------------------------------------------------------------------------------------|
|Guitar II
|--------------------------------------------------------------------------------------5---6-5---6-5---6-5-|
|-9----9----9-9-9------8---8---8---8-----------------------------------------------5---6-5---6-5---6-5-|
|-9----9----9-9-9------8---8---8---8---------------------------------------------------------------------|
|-9----9----9-9-9------8---8---8---8--------------------------------5-5-5-5-5-5------------------------|
|-7----7----7-7-7------6---6---6---6--------------------------------5-5-5-5-5-5------------------------|
|----------------------------------------------------------------------3-3-3-3-3-3------------------------|


Guitar I
|----------------------------------------------------------------------------------------------------|
|-10------10------10-13-b-b-14-14-14-b-b-13-13-13-13---------------------------------------|
|----12------12-------------------------------------------------------------------------------------|
|----------------------------------------------------------------------------------------------------|
|----------------------------------------------------------------------------------------------------|
|----------------------------------------------------------------------------------------------------|


|Guitar II
|-----------------------------------------------------------------------------------------------------------|
|------------------------------------------------------------------------5-5-5-5b7-7-7-5-5-3-3---------|
|---------------------------------------------4-4-4-4-4-4-4-4-4-4-4-----------------------------4-4-4-|
|-----------------------------------------------------------------------------------------------------------|
|-----------------------------------------------------------------------------------------------------------|
|-----------------------------------------------------------------------------------------------------------|


Guitar I
|-11-x-14-14-14-14-14---11----------------------------------------------------------11------3--3--|
|-11-x-14-14-14-14-14---11--14----------11-------------11-----------11-----------11------3--3--|
|---------------------------------13-13b15-----13-13b15-----13-13b15-----13-13b15-------------|
|--------------------------------------------------------------------------------------------------------|
|--------------------------------------------------------------------------------------------------------|
|--------------------------------------------------------------------------------------------------------|


|Guitar II
|-----------------------------------------------------------------------------------------|
|-----------------------------------------------------------------------------------------|
|-----------------------------------------------------------------------------------------|
|-----------------------------------------------------------------------------------------|
|-----------------------------------------------------------------------------------------|
|-----------------------------------------------------------------------------------------|


Guitar I
|-3-3-----------------------------------5---------5-----5---------------------------------------------|
|------3----------------------------5-----------5-----5-------------------------9---------------------|
|---------------------------5---6-----------6-------------6-----------9-------9---9---10--10-10-9-|
|---------------------------------------------------------------------------9--------------------------|
|------------------------------------------------------------------------------------------------------|
|------------------------------------------------------------------------------------------------------|
|Guitar II
|-------------------------------------------------------------------------------------------------|
|-------------------------------------------------------------------------------------------------|
|-------------------------------------------------------------------------------------------------|
|-------------------------------------------------------------------------------------------------|
|-------------------------------------------------------------/7----------------------------------|
|----------3-3-3-4-4-4-5------------------------------------------------------------------------|


Guitar I
|-3--3----------------------------3--3--3--3--3--4--5--------------------------------------------------|
|----------------------------------3--3--3--3--3--4--5------------------------------------------5-5-5-|
|----------------------------------4--4--4--4--4--5--6------------------------5-7-7-b-9---9--9-9-9-|
|----------------------------------5--5--5--5--5--6--7----------------------7-------------------------|
|--------------------------------------------------------------------------------------------------------|
|--------------------------------------------------------------------------------------------------------|
|Guitar II
|--------------------------------------------------------------------------------------------------|
|-------------------------------------------------------x-x-x-x-x-x-x-x-x-x-x-x---------------|
|-------------------------------------------------------x-x-x-x-x-x-x-x-x-x-x-x--------------|
|-------------------------------------------------------x-x-x-x-x-x-x-x-x-x-x-x---------------|
|-------------------------------------------------------x-x-x-x-x-x-x-x-x-x-x-x---------------|
|--------------------------------------------------------------------------------------------------|

End Of Solo




(From "Blinding signs flap, flicker flicker flicker flicker Blam! Pow!")
Guitar I
|--------------------------------------------------------------------------------------------------|
|-9---9---9---9---9--9-9-9-9-9--9-9-9-9-9--9-9-9-9-9--9-9-9-9-8----8--------------------|
|-9---9---9---9---9--9-9-9-9-9--9-9-9-9-9--9-9-9-9-9--9-9-9-9-8----8--------------------|
|-9---9---9---9---9--9-9-9-9-9--9-9-9-9-9--9-9-9-9-9--9-9-9-9-8----8--------------------|
|-7---7---7---7---7--7-7-7-7-7--7-7-7-7-7--7-7-7-7-7--7-7-7-7-6----6--------------------|
|-------------------------------------------------------------------------------------------------|
|Guitar II
|---------------------------------------------------------19\-3---19\-3---19\-3---3-|
|---------------------------------------------------------------------------------------|
|---------------------------------------------------------------------------------------|
|---------------------------------------------------------------------------------------|
|---------------------------------------------------------------------------------------|
|---------------------------------------------------------------------------------------|


(From "Stairway scare dan dares who's there?")

Guitar I
|------------------------------------|
|------------------------------------|
|------------------------------------|
|-5---5---5---5---5---5---5---6---|
|-5---5---5---5---5---5---5---6---|
|-3---3---3---3---3---3---3---4---|


|Guitar II
|-3-3/5-3-----------------------|
|---------------------------------|
|---------------------------------|
|---------------------------------|
|---------------------------------|
|---------------------------------|



(From "ee ee ee ee ee ee ee ee")

Guitar I
|-/12-12-12---11-11-11--10-10-10---9-9-9---8-8-8---7-7-7---6-6-6---5-5-5---|
|-/12-12-12---11---------------------------------------------------------------------|
|---------------------------------------------------------------------------------------|
|---------------------------------------------------------------------------------------|
|---------------------------------------------------------------------------------------|
|---------------------------------------------------------------------------------------|


|Guitar II
|--------------------------------------------------------------------/-----|
|--------------------------------------------------------------------/-----|
|--------------------------------------------------------------------/-----|
|--------------------------------------------------------------------/-----|
|--------------------------------------------------------------------------|
|--------------------------------------------------------------------------|


(From "ee ee ee ee ee ee ee ee")

Guitar I
|---12----------11---------10---------9----------8----------7----------6----------5-------|
|---------------------------------------------------------------------------------------------|
|-9-----------8----------7----------6----------5----------4----------3----------2----------|
|---------------------------------------------------------------------------------------------|
|---------------------------------------------------------------------------------------------|
|---------------------------------------------------------------------------------------------|


|Guitar II
|-/17-17-17---16-16-16---15-15-15---14-14-14---13-13-13---12-12-12---11-11-11---10-10-10\-|
|------------------------------------------------------------------------------------------------------------|
|------------------------------------------------------------------------------------------------------------|
|------------------------------------------------------------------------------------------------------------|
|------------------------------------------------------------------------------------------------------------|
|------------------------------------------------------------------------------------------------------------|




Outro:

(From "Lime and limpid green, the sound surrounds...")

|-2-----------2---1-----------1--------2-----------2---1-----------1---|
|-3--------3------3--------3-----------3-----------3---3--------3------|
|-2---------------2--------------------2------------2---2-----2---------|
|-0---------------0--------------------0------------0---0---------------|
|-------------------------------------------------------------------------|
|-------------------------------------------------------------------------|



(From "Lime and limpid green, the sound surrounds...")

|-2-----------2---1--------------1-----2-------2---1---1-----1--------2-----------------------------|
|-3-----------3---3--------------3-----3-----------3---3--------3-----3-----------------------------|
|-2-----------2---2--------------2-----2---------------2---------------2-----------------------------|
|-0---------------0--------------0-----0---------------0---------------0-----------------------------|
|----------------------------------------------------------------------------------------------------|
|----------------------------------------------------------------------------------------------------|

Astronomy Domine