D
---2--------------2-------
---3------3---------------

---2----------2-----------    

---0---0---------------0--
--------------------------
--------------------------


G7/D
---1--------------1-------
---0------0---------------
---0---------0------------
-------0---------------0--
--------------------------
--------------------------

E/D
-4-----------4-----
-5-----5-----------
-4--------4--------
-0--0-----------0--
-------------------
-------------------

A7
-3--------------
-2--------2-----
-2--2--2-----2--
-2--------------
-0--------------
----------------

Dsus2
--------0--------
--3--------3-----
-----2--------2--
-----------------
-----------------
-----------------

D(8times)

D    D      G7/D(2 times)
The lunatic is ...
D    D      G7/D(2 times)
The lunatic is ...

D     D
Remembering ...

daisy chains and laughs Got to keep ...
-4-------4--------4-------4----3-----------------3-------------------
-5---5------------5---5--------2-------2---2-----2------------2------
-4-----4----------4-----4------2---2-2---2-------2------2------------
---0-------0--------0-------0--2-----------------2-------------------
---------------------------------0-------------------0-----0-----0---
---------------------------------------------------------------------

The lunatic  ...
-2-------2---0-------0----------2-------2-----2-------2------1-------1----
-3---3-3---------3-------3------3---3---------3---3----------0---0--------
-2-----2---------------2-----2--2-----2-------2-----2--------0-----0------
-0-0-------0---0---0-------0------0-------0-----0-------0------0-------0--
--------------------------------------------------------------------------
--------------------------------------------------------------------------

     The lunatics  are ...
-1-------1---2-------2----2-------2----1-------1----1-------1----
-0---0-------3---3--------3---3--------0---0--------0---0--------
-0-----0-----2-----2------2-----2------0-----0------0-----0------
---0-------0---0-------0----0-------0----0-------0----0-------0--
-----------------------------------------------------------------
-----------------------------------------------------------------

The paper holds  their folded  fac....
-2-------2------2-------2-----4-------------4-----4-----------4-----
-3---3----------3---3---------5--------5----------5-----5-----------
-2-----2--------2-----2-------4-----------4----4--4--------4--------
---0-------0------0-------0---0----0-----------0--0--0-----------0--
--------------------------------------------------------------------
--------------------------------------------------------------------


every day, the  paper boy ...
-3--------------3-----------3-----2-------2---0-------0-----2-----2-0-
-2-------2------2-----2-----2-----3---3-----------3-----3---1---1-----
-2---2---2------2-----2-----2-----2-----------------2-------2-2-------
-2--------------2-----------------0-0---0---0---0---0-------0---------
---0---0---0-------0-----0-----0--------------------------0-----------
----------------------------------------------------------------------

Chorus;
G     A
And if the dam breaks ...
-----0---0------------------------------------------------------
-1-----0------------------0-----------0--------------2----------
----------------------0---0---0---------0------------2--------2-
---4--------------------------------0-----------2----2----0>2---
----------------------------------2----------0--0---------------
-----------0-2---3--------------3---------3---------------------

     C       G
And if there is no ...
-------------------0-------------------------------------
-------2-------1-----3-1>3-----------------------------0-
-----2---2-------0-----------------0---0---------------0-
---2--------------------------2----2---2--2--------0-----
-0---------0-3--------------3---3--3---3--3--------------
-----------------------------------------------3---------

    A7
And if your head explodes ...
-----------------------------------------------------------
--0-------0-----0------------------0--------------0--------
-----0----0--0--0--------------0------0-------0>2---0-0>2--
----------0---------------0-----------------2--------------
--------------------------------------------0--------------
--------3------------3-------------------3-----------------

     I'll see you in the ...
---------------------------------------0-0-------------------------
--------2------------------1-----------1-1-----------------0-------
----2-----2------------0--------0------0-0-------------------0-----
------2--------------------------------2-2-------------------------
--0---------------3-----------------3----3-----------------------0-
---------------------------------------------------3-----3-----3---


Ah----------    Ah
-----------------------------------------
-----3----------3---------------2---2----
---2---2---0----4-------0-----2---2---0--
---------4-2--------5--------------------
-2---------2----------------0------------
-----------0-----------------------------


The      lunatic is ...
-2-------2---2---------2-----1-------1---1-------1----
-3---3-------3-----3---------0---0-------0---0--------
-2-----2-----2-------2-------0-----0-----0-----0------
---0-------0-----0--------0----0-------0---0-------0--
------------------------------------------------------
------------------------------------------------------


The   lunatic is ...
-2-------2----2-------2----1-------1---1-------1----
-3---3--------3---3--------0---0-------0---0--------
-2-----2------2-----2------0-----0-----0-----0------
---0-------0----0-------0----0-------0---0-------0--
----------------------------------------------------
----------------------------------------------------


You raise the blade,    You ...
-2-----------2-------2-------2---4--------------4----4-------4----
-3------3------------3---3-------5--------5----------5---5--------
-2---------2---------2-----2-----4-----------4-------4-----4------
-0----0---------0------0-------0-0-----0-----------0-0-0--------0-
------------------------------------------------------------------
------------------------------------------------------------------

  You re-arrange me ...
-3--------------3------------------2-------2----0-----0--------
-2-------2------2------------2-----3---3--------3-3------------
-2---2-2--------2------2---2-------2-----2------2--------2--2--
-2--------------2------------------0-0-------0--0---0----0--0--
---0---------0-------0----------0------------------------------
---------------------------------------------------------------

    You lock the door   And ...
-2----------------2---2-----------2----4------------4---4-----------4----
-3--------3-----------3-----3----------5------5---------5-----5----------
-2------------2-------2--------2-------4---------4------4--------4-------
-0----0-------------0-0--0-----------0-0---0------------0--0-----------0-
-------------------------------------------------------------------------
-------------------------------------------------------------------------

someone in my head, ...
-3-3----------3------------------2------2---------0--------0--------
-2-------2----2-----------2------3------3---3--------3--------3-----
-2-----2------2-----2--2---------2------2------2--------2--------2--
-2------------2--------2---------0------0------0--------------------
-0---0-----0--0---0----0-----0-----------------0--------------------
--------------------------------------------------------------------

-2-----2--0---------2---------------
-1-----------1----------1-----------
-2--2------------2------------------
-0----------------------------------
------------------------------------
----------------------------0--2--3-


repeat chorus

outro: use chords at top.

D D G7/D G7/D D D G7/D G7/D D D
E/D E/D A7 A7 D Dsus2 D D E/D E/D
A7 A7 D Dsus2


Brain Damage